Pearl Jam – Yellow Ledbetter #Tabs

The introducion of the song is something like:

(Guitar 1)
e|-------------9----------|------9p7-------7-9--|-7p5------5------|
B|-------------9----------|----------7-----7-7--|-5--------5---5--|
G|---------9---9h11p9-----|------------8---8-8--|-6--------6h7p6--|
D|----9----9----------11\-|----9-------9---9----|-7-----7--7------|
A|----9h11----------------|---------------------|-----------------|
E|-0----------------------|-/7------------------|-----5-----------| 

e|---5h7p5--------|------12/14--12--------|--------------9----------|
B|---------7p5----|------12/14--12-14-----|--------------9----9-----|
G|---------5---6--|-------------------11\-|----------9---9h11-9-----|
D|-7--------------|-----------------------|-----9----9----------11--|
A|----------------|-----------------------|-----9h11----------------|
E|----------------|-0---------------------|--0----------------------|  

e|--------9-9-7----9p7-9--|-7p5---------5--------5--|------12/19------|
B|----------7-7--7-7---7--|-5----------------5h7p5--|------12/19------|
G|----8-8---8-8--8-8---8--|-6-------6h7----7-6h7p6--|-----------------|
D|------------9--9-9------|-7-------7---------------|-------------14\-|
A|------------------------|-------------------------|-------------14\-|
E|-7----------------------|------5------------------|-0-----------16\-|
                                                                             

And now, the chords and lyrics


E
Unsealed
     B              A
On a porch a letter sat
                      E
Then you said i wanna leave it again
E
Once i saw him
      B                 A
On a beach of weathered sand
                        E
And on the sand i wanna leave it again

E                  B
On a weekend wanna wish it all way
         A
And they called an i said an i want what
           E
i said an i call out again

E                     B               
And the reason oughta leave her calm i know
A                                E
I said i know what i wear that a box or the bag


[Chorus]

E                   B
Oh yeah can you see them?
           A
Out on the porch
                   E
Ah, but they don't wave
E
I see them
          B
Round the front way, yeah
A
And i know and i know
              E
I don't wanna stay

make me cry

now the solo!

E
I see
                     B
I don't know there's something else
A                   E
I wanna drum it all away
E
An i said
A                                     E
I said i i don't know where there's a box or the bag


[Chorus]

E                   B
Oh yeah can you see them?
           A
Out on the porch
                   E
Ah, but they don't wave
E
I see them
          B
Round the front way, yeah
A
And i know and i know
              E
I don't wanna stay  (during these play EEB short pause BAAE) repeat till fade
              
I don't wanna stay

I don't wanna stay

I don't wanna stay

       E                      B                 A 
e|----------------------------7-----------------5----------------|
B|----------------------------7-----------------5----------------|
G|-----1----------------------8-----------------6----------------|
D|-----2----------------------9-----------------7----------------|
A|-----2----------------------9-----------------7----------------|
E|----------------------------7-----------------5----------------| 

Dare you to follow it

solo:

|---------------------------------------------------------------------|
|---------------------------------------------------------------------|
|--------9~~--9-11-11b-11-9h11p9----9---------------------------------|
|--9h11--------------------------11---11p9----9-----------------------|
|------------------------------------------11---9h11p9s7-7h9p7--------|
|---------------------------------------------------------------------|



|---------------------------------------------------------------------|
|-------------------------12br--12br----------------------------------|
|------------------x---x-------------13-11-13p11s9-9-11-11-11-11------|
|------------------x\x/x-----------------------------bend on these----|
|-------7---7---9b--\x/------------------------------four notes-w/----|
|--9--9---9---9-------pick scrape--------------------a whammy bar-----|



|----------------------------------------------14b-12----12-14-12s----|
|------------------12----14~-14p12-14p12-14p12--------14--------------|
|-11p9----9--11s13----13----------------------------------------------|
|------11-------------------------------------------------------------|
|---------------------------------------------------------------------|
|---------------------------------------------------------------------|



|---------------------------------------------------------------------|
|-------14-14-14-14p12-------------------slow bend--------------------|
|-11s13-13-13-13-------13p11s9-9-9h11p9----11b------9----9------------|
|---------------------------------------11------------11---11---------|
|---------------------------------------------------------------------|
|---------------------------------------------------------------------|



|-----7---9-7h9p7h9p7h9p7h9p7h9s--------------------------------------|
|-7s9---9-------------------------------------------------------------|
|---------------------------------------------------------------------|
|---------------------------------------------------------------------|
|---------------------------------------------------------------------|
|---------------------------------------------------------------------|

Some good tutorials that help me with my riff!